ISO-10303-21;
HEADER;
FILE_DESCRIPTION (( 'STEP AP203' ),
    '1' );
FILE_NAME ('QB-CTZQWP-10-1310-M.STEP',
    '2020-12-24T01:48:14',
    ( '' ),
    ( '' ),
    'SwSTEP 2.0',
    'SolidWorks 2020',
    '' );
FILE_SCHEMA (( 'CONFIG_CONTROL_DESIGN' ));
ENDSEC;

DATA;
#1 = DIRECTION ( 'NONE',  ( 0.000000000000000000, 0.000000000000000000, 1.000000000000000000 ) ) ;
#2 = DIRECTION ( 'NONE',  ( 0.000000000000000000, 0.000000000000000000, -1.000000000000000000 ) ) ;
#3 = ADVANCED_FACE ( 'NONE', ( #193 ), #134, .F. ) ;
#4 = CARTESIAN_POINT ( 'NONE',  ( -1.614212418857619014, 0.000000000000000000, 0.000000000000000000 ) ) ;
#5 =( LENGTH_UNIT ( ) NAMED_UNIT ( * ) SI_UNIT ( .MILLI., .METRE. ) );
#6 = ORIENTED_EDGE ( 'NONE', *, *, #83, .F. ) ;
#7 = CC_DESIGN_SECURITY_CLASSIFICATION ( #223, ( #326 ) ) ;
#8 = CIRCLE ( 'NONE', #247, 5.000000000000001776 ) ;
#9 = VERTEX_POINT ( 'NONE', #30 ) ;
#10 = ORIENTED_EDGE ( 'NONE', *, *, #33, .T. ) ;
#11 = AXIS2_PLACEMENT_3D ( 'NONE', #103, #235, #15 ) ;
#12 = ORIENTED_EDGE ( 'NONE', *, *, #220, .F. ) ;
#13 = VERTEX_POINT ( 'NONE', #221 ) ;
#14 = AXIS2_PLACEMENT_3D ( 'NONE', #114, #93, #61 ) ;
#15 = DIRECTION ( 'NONE',  ( 0.000000000000000000, 0.000000000000000000, 1.000000000000000000 ) ) ;
#16 = CIRCLE ( 'NONE', #50, 5.000000000000000888 ) ;
#17 = APPROVAL_DATE_TIME ( #279, #248 ) ;
#18 = DIRECTION ( 'NONE',  ( 0.000000000000000000, 0.000000000000000000, 1.000000000000000000 ) ) ;
#19 = AXIS2_PLACEMENT_3D ( 'NONE', #284, #291, #90 ) ;
#20 = CALENDAR_DATE ( 2020, 24, 12 ) ;
#21 = CARTESIAN_POINT ( 'NONE',  ( -1.614212418857619014, 0.000000000000000000, 0.000000000000000000 ) ) ;
#22 = DATE_TIME_ROLE ( 'creation_date' ) ;
#23 = FACE_OUTER_BOUND ( 'NONE', #98, .T. ) ;
#24 = AXIS2_PLACEMENT_3D ( 'NONE', #21, #131, #186 ) ;
#25 = DIRECTION ( 'NONE',  ( -1.000000000000000000, -0.000000000000000000, -0.000000000000000000 ) ) ;
#26 = DIRECTION ( 'NONE',  ( -0.000000000000000000, 0.000000000000000000, 1.000000000000000000 ) ) ;
#27 = CC_DESIGN_PERSON_AND_ORGANIZATION_ASSIGNMENT ( #208, #102, ( #199 ) ) ;
#28 = CARTESIAN_POINT ( 'NONE',  ( -3.000000000000000000, 0.000000000000000000, 0.000000000000000000 ) ) ;
#29 =( NAMED_UNIT ( * ) SI_UNIT ( $, .STERADIAN. ) SOLID_ANGLE_UNIT ( ) );
#30 = CARTESIAN_POINT ( 'NONE',  ( -3.000000000000000000, 0.000000000000000000, 12.69999999999999929 ) ) ;
#31 = DIRECTION ( 'NONE',  ( 0.000000000000000000, 0.000000000000000000, 1.000000000000000000 ) ) ;
#32 = EDGE_LOOP ( 'NONE', ( #6, #152 ) ) ;
#33 = EDGE_CURVE ( 'NONE', #290, #172, #295, .T. ) ;
#34 = CIRCLE ( 'NONE', #192, 12.69999999999999929 ) ;
#35 = CARTESIAN_POINT ( 'NONE',  ( 3.000000000000000000, 12.69999999999999929, 0.000000000000000000 ) ) ;
#36 = CARTESIAN_POINT ( 'NONE',  ( -1.250000000000000222, 6.123233995736767268E-16, -5.000000000000000888 ) ) ;
#37 = ADVANCED_FACE ( 'NONE', ( #68, #331 ), #195, .F. ) ;
#38 = EDGE_LOOP ( 'NONE', ( #112, #12 ) ) ;
#39 = SHAPE_DEFINITION_REPRESENTATION ( #309, #91 ) ;
#40 = ORIENTED_EDGE ( 'NONE', *, *, #59, .T. ) ;
#41 = VERTEX_POINT ( 'NONE', #262 ) ;
#42 = LOCAL_TIME ( 9, 48, 14.00000000000000000, #162 ) ;
#43 = VECTOR ( 'NONE', #87, 1000.000000000000000 ) ;
#44 = ORIENTED_EDGE ( 'NONE', *, *, #48, .F. ) ;
#45 = FACE_OUTER_BOUND ( 'NONE', #145, .T. ) ;
#46 = DIRECTION ( 'NONE',  ( 0.000000000000000000, 0.000000000000000000, 1.000000000000000000 ) ) ;
#47 = CARTESIAN_POINT ( 'NONE',  ( 3.000000000000000000, 0.000000000000000000, 0.000000000000000000 ) ) ;
#48 = EDGE_CURVE ( 'NONE', #172, #290, #316, .T. ) ;
#49 = APPROVAL_PERSON_ORGANIZATION ( #254, #248, #303 ) ;
#50 = AXIS2_PLACEMENT_3D ( 'NONE', #265, #244, #101 ) ;
#51 = DATE_AND_TIME ( #179, #42 ) ;
#52 = DIRECTION ( 'NONE',  ( 0.000000000000000000, 0.000000000000000000, 1.000000000000000000 ) ) ;
#53 = APPROVAL_ROLE ( '' ) ;
#54 = DIRECTION ( 'NONE',  ( -1.000000000000000000, -0.000000000000000000, -0.000000000000000000 ) ) ;
#55 = EDGE_CURVE ( 'NONE', #297, #41, #138, .T. ) ;
#56 = APPLICATION_PROTOCOL_DEFINITION ( 'international standard', 'config_control_design', 1994, #306 ) ;
#57 = EDGE_CURVE ( 'NONE', #318, #317, #334, .T. ) ;
#58 = CARTESIAN_POINT ( 'NONE',  ( 3.000000000000000000, 0.000000000000000000, 12.69999999999999929 ) ) ;
#59 = EDGE_CURVE ( 'NONE', #9, #317, #261, .T. ) ;
#60 = AXIS2_PLACEMENT_3D ( 'NONE', #107, #239, #130 ) ;
#61 = DIRECTION ( 'NONE',  ( 0.000000000000000000, 0.000000000000000000, 1.000000000000000000 ) ) ;
#62 = CARTESIAN_POINT ( 'NONE',  ( 3.000000000000000000, 0.000000000000000000, 0.000000000000000000 ) ) ;
#63 = PLANE ( 'NONE',  #184 ) ;
#64 = FACE_OUTER_BOUND ( 'NONE', #32, .T. ) ;
#65 = DIRECTION ( 'NONE',  ( -1.000000000000000000, -0.000000000000000000, -0.000000000000000000 ) ) ;
#66 = LINE ( 'NONE', #241, #203 ) ;
#67 = ORIENTED_EDGE ( 'NONE', *, *, #79, .F. ) ;
#68 = FACE_OUTER_BOUND ( 'NONE', #80, .T. ) ;
#69 = DIRECTION ( 'NONE',  ( -1.000000000000000000, -0.000000000000000000, -0.000000000000000000 ) ) ;
#70 = LOCAL_TIME ( 9, 48, 14.00000000000000000, #106 ) ;
#71 = CC_DESIGN_PERSON_AND_ORGANIZATION_ASSIGNMENT ( #260, #156, ( #128 ) ) ;
#72 = CIRCLE ( 'NONE', #310, 5.000000000000000000 ) ;
#73 = EDGE_CURVE ( 'NONE', #297, #290, #189, .T. ) ;
#74 = CC_DESIGN_PERSON_AND_ORGANIZATION_ASSIGNMENT ( #305, #160, ( #326 ) ) ;
#75 = ORIENTED_EDGE ( 'NONE', *, *, #330, .T. ) ;
#76 = UNCERTAINTY_MEASURE_WITH_UNIT (LENGTH_MEASURE( 1.000000000000000082E-05 ), #5, 'distance_accuracy_value', 'NONE');
#77 = ORIENTED_EDGE ( 'NONE', *, *, #183, .T. ) ;
#78 = ADVANCED_FACE ( 'NONE', ( #191, #286 ), #63, .F. ) ;
#79 = EDGE_CURVE ( 'NONE', #96, #9, #111, .T. ) ;
#80 = EDGE_LOOP ( 'NONE', ( #299, #177 ) ) ;
#81 = CALENDAR_DATE ( 2020, 24, 12 ) ;
#82 = EDGE_LOOP ( 'NONE', ( #274, #144, #230, #300 ) ) ;
#83 = EDGE_CURVE ( 'NONE', #41, #297, #16, .T. ) ;
#84 = LINE ( 'NONE', #182, #43 ) ;
#85 = PERSON_AND_ORGANIZATION ( #296, #327 ) ;
#86 = SECURITY_CLASSIFICATION_LEVEL ( 'unclassified' ) ;
#87 = DIRECTION ( 'NONE',  ( -1.000000000000000000, -0.000000000000000000, -0.000000000000000000 ) ) ;
#88 = CARTESIAN_POINT ( 'NONE',  ( -1.250000000000000222, 5.000000000000000000, 0.000000000000000000 ) ) ;
#89 = DIRECTION ( 'NONE',  ( -1.000000000000000000, -0.000000000000000000, -0.000000000000000000 ) ) ;
#90 = DIRECTION ( 'NONE',  ( 0.000000000000000000, 0.000000000000000000, 1.000000000000000000 ) ) ;
#91 = ADVANCED_BREP_SHAPE_REPRESENTATION ( 'QB-CTZQWP-10-1310-M', ( #240, #151 ), #97 ) ;
#92 = DIRECTION ( 'NONE',  ( -0.000000000000000000, 0.000000000000000000, 1.000000000000000000 ) ) ;
#93 = DIRECTION ( 'NONE',  ( -1.000000000000000000, -0.000000000000000000, -0.000000000000000000 ) ) ;
#94 = DIRECTION ( 'NONE',  ( 0.000000000000000000, 0.000000000000000000, 1.000000000000000000 ) ) ;
#95 = LOCAL_TIME ( 9, 48, 14.00000000000000000, #234 ) ;
#96 = VERTEX_POINT ( 'NONE', #58 ) ;
#97 =( GEOMETRIC_REPRESENTATION_CONTEXT ( 3 ) GLOBAL_UNCERTAINTY_ASSIGNED_CONTEXT ( ( #76 ) ) GLOBAL_UNIT_ASSIGNED_CONTEXT ( ( #5, #313, #29 ) ) REPRESENTATION_CONTEXT ( 'NONE', 'WORKASPACE' ) );
#98 = EDGE_LOOP ( 'NONE', ( #169, #231, #10, #173 ) ) ;
#99 = EDGE_LOOP ( 'NONE', ( #301, #124, #253, #67 ) ) ;
#100 = CIRCLE ( 'NONE', #285, 12.69999999999999929 ) ;
#101 = DIRECTION ( 'NONE',  ( 0.000000000000000000, 0.000000000000000000, -1.000000000000000000 ) ) ;
#102 = PERSON_AND_ORGANIZATION_ROLE ( 'creator' ) ;
#103 = CARTESIAN_POINT ( 'NONE',  ( -3.000000000000000000, 0.000000000000000000, 0.000000000000000000 ) ) ;
#104 = MECHANICAL_CONTEXT ( 'NONE', #306, 'mechanical' ) ;
#105 = CALENDAR_DATE ( 2020, 24, 12 ) ;
#106 = COORDINATED_UNIVERSAL_TIME_OFFSET ( 8, 0, .AHEAD. ) ;
#107 = CARTESIAN_POINT ( 'NONE',  ( -1.614212418857619014, 0.000000000000000000, 0.000000000000000000 ) ) ;
#108 = CLOSED_SHELL ( 'NONE', ( #294, #118, #200, #201, #3, #188, #78, #153, #37, #266 ) ) ;
#109 = DIRECTION ( 'NONE',  ( -1.000000000000000000, 0.000000000000000000, -0.000000000000000000 ) ) ;
#110 = DIRECTION ( 'NONE',  ( 0.000000000000000000, 0.000000000000000000, 1.000000000000000000 ) ) ;
#111 = LINE ( 'NONE', #217, #171 ) ;
#112 = ORIENTED_EDGE ( 'NONE', *, *, #320, .F. ) ;
#113 = APPROVAL ( #181, 'UNSPECIFIED' ) ;
#114 = CARTESIAN_POINT ( 'NONE',  ( -3.000000000000000000, 0.000000000000000000, 0.000000000000000000 ) ) ;
#115 = DIRECTION ( 'NONE',  ( -1.000000000000000000, -0.000000000000000000, -0.000000000000000000 ) ) ;
#116 = DIRECTION ( 'NONE',  ( -1.000000000000000000, -0.000000000000000000, -0.000000000000000000 ) ) ;
#117 = ORIENTED_EDGE ( 'NONE', *, *, #158, .T. ) ;
#118 = ADVANCED_FACE ( 'NONE', ( #23 ), #157, .F. ) ;
#119 = ORIENTED_EDGE ( 'NONE', *, *, #123, .T. ) ;
#120 = APPROVAL_DATE_TIME ( #147, #146 ) ;
#121 = ORIENTED_EDGE ( 'NONE', *, *, #126, .F. ) ;
#122 = VERTEX_POINT ( 'NONE', #302 ) ;
#123 = EDGE_CURVE ( 'NONE', #317, #9, #168, .T. ) ;
#124 = ORIENTED_EDGE ( 'NONE', *, *, #57, .T. ) ;
#125 = ORIENTED_EDGE ( 'NONE', *, *, #123, .F. ) ;
#126 = EDGE_CURVE ( 'NONE', #250, #122, #84, .T. ) ;
#127 = CARTESIAN_POINT ( 'NONE',  ( -1.614212418857619014, 0.000000000000000000, 0.000000000000000000 ) ) ;
#128 = PRODUCT ( 'QB-CTZQWP-10-1310-M', 'QB-CTZQWP-10-1310-M', '', ( #104 ) ) ;
#129 = DATE_AND_TIME ( #20, #95 ) ;
#130 = DIRECTION ( 'NONE',  ( 0.000000000000000000, 0.000000000000000000, 1.000000000000000000 ) ) ;
#131 = DIRECTION ( 'NONE',  ( -1.000000000000000000, -0.000000000000000000, -0.000000000000000000 ) ) ;
#132 = APPROVAL_PERSON_ORGANIZATION ( #277, #113, #53 ) ;
#133 = AXIS2_PLACEMENT_3D ( 'NONE', #28, #141, #1 ) ;
#134 = CYLINDRICAL_SURFACE ( 'NONE', #214, 5.000000000000000888 ) ;
#135 = DIRECTION ( 'NONE',  ( -1.000000000000000000, -0.000000000000000000, -0.000000000000000000 ) ) ;
#136 = DIRECTION ( 'NONE',  ( 1.000000000000000000, 0.000000000000000000, 0.000000000000000000 ) ) ;
#137 = DIRECTION ( 'NONE',  ( -1.000000000000000000, -0.000000000000000000, -0.000000000000000000 ) ) ;
#138 = CIRCLE ( 'NONE', #197, 5.000000000000000888 ) ;
#139 = DIRECTION ( 'NONE',  ( 1.000000000000000000, 0.000000000000000000, 0.000000000000000000 ) ) ;
#140 = DIRECTION ( 'NONE',  ( -1.000000000000000000, -0.000000000000000000, -0.000000000000000000 ) ) ;
#141 = DIRECTION ( 'NONE',  ( -1.000000000000000000, -0.000000000000000000, -0.000000000000000000 ) ) ;
#142 = EDGE_LOOP ( 'NONE', ( #44, #319 ) ) ;
#143 = EDGE_CURVE ( 'NONE', #13, #204, #329, .T. ) ;
#144 = ORIENTED_EDGE ( 'NONE', *, *, #126, .T. ) ;
#145 = EDGE_LOOP ( 'NONE', ( #202, #77, #311, #125 ) ) ;
#146 = APPROVAL ( #322, 'UNSPECIFIED' ) ;
#147 = DATE_AND_TIME ( #81, #314 ) ;
#148 = CC_DESIGN_APPROVAL ( #248, ( #199 ) ) ;
#149 = AXIS2_PLACEMENT_3D ( 'NONE', #215, #115, #264 ) ;
#150 = ORIENTED_EDGE ( 'NONE', *, *, #143, .T. ) ;
#151 = AXIS2_PLACEMENT_3D ( 'NONE', #325, #46, #256 ) ;
#152 = ORIENTED_EDGE ( 'NONE', *, *, #55, .F. ) ;
#153 = ADVANCED_FACE ( 'NONE', ( #45 ), #154, .T. ) ;
#154 = CYLINDRICAL_SURFACE ( 'NONE', #207, 12.69999999999999929 ) ;
#155 = AXIS2_PLACEMENT_3D ( 'NONE', #35, #109, #92 ) ;
#156 = PERSON_AND_ORGANIZATION_ROLE ( 'design_owner' ) ;
#157 = CYLINDRICAL_SURFACE ( 'NONE', #60, 5.000000000000000888 ) ;
#158 = EDGE_CURVE ( 'NONE', #13, #250, #8, .T. ) ;
#159 = VECTOR ( 'NONE', #25, 1000.000000000000000 ) ;
#160 = PERSON_AND_ORGANIZATION_ROLE ( 'design_supplier' ) ;
#161 = FACE_OUTER_BOUND ( 'NONE', #271, .T. ) ;
#162 = COORDINATED_UNIVERSAL_TIME_OFFSET ( 8, 0, .AHEAD. ) ;
#163 = CARTESIAN_POINT ( 'NONE',  ( -3.000000000000000000, 1.555301434917138433E-15, -12.69999999999999929 ) ) ;
#164 = DIRECTION ( 'NONE',  ( 0.000000000000000000, 0.000000000000000000, -1.000000000000000000 ) ) ;
#165 = CYLINDRICAL_SURFACE ( 'NONE', #219, 12.69999999999999929 ) ;
#166 = CARTESIAN_POINT ( 'NONE',  ( -3.000000000000000000, 5.000000000000000000, 0.000000000000000000 ) ) ;
#167 = FACE_OUTER_BOUND ( 'NONE', #99, .T. ) ;
#168 = CIRCLE ( 'NONE', #11, 12.69999999999999929 ) ;
#169 = ORIENTED_EDGE ( 'NONE', *, *, #83, .T. ) ;
#170 = PLANE ( 'NONE',  #228 ) ;
#171 = VECTOR ( 'NONE', #65, 1000.000000000000000 ) ;
#172 = VERTEX_POINT ( 'NONE', #209 ) ;
#173 = ORIENTED_EDGE ( 'NONE', *, *, #330, .F. ) ;
#174 = ORIENTED_EDGE ( 'NONE', *, *, #225, .T. ) ;
#175 = CC_DESIGN_APPROVAL ( #146, ( #223 ) ) ;
#176 = VECTOR ( 'NONE', #282, 1000.000000000000000 ) ;
#177 = ORIENTED_EDGE ( 'NONE', *, *, #183, .F. ) ;
#178 = CIRCLE ( 'NONE', #298, 5.000000000000000000 ) ;
#179 = CALENDAR_DATE ( 2020, 24, 12 ) ;
#180 = DIRECTION ( 'NONE',  ( 0.000000000000000000, 0.000000000000000000, 1.000000000000000000 ) ) ;
#181 = APPROVAL_STATUS ( 'not_yet_approved' ) ;
#182 = CARTESIAN_POINT ( 'NONE',  ( -1.614212418857619014, 6.123233995736767268E-16, -5.000000000000000888 ) ) ;
#183 = EDGE_CURVE ( 'NONE', #318, #96, #100, .T. ) ;
#184 = AXIS2_PLACEMENT_3D ( 'NONE', #166, #136, #242 ) ;
#185 = CALENDAR_DATE ( 2020, 24, 12 ) ;
#186 = DIRECTION ( 'NONE',  ( 0.000000000000000000, 0.000000000000000000, 1.000000000000000000 ) ) ;
#187 = PERSON_AND_ORGANIZATION ( #296, #327 ) ;
#188 = ADVANCED_FACE ( 'NONE', ( #161 ), #257, .F. ) ;
#189 = LINE ( 'NONE', #307, #268 ) ;
#190 = DIRECTION ( 'NONE',  ( -1.000000000000000000, 0.000000000000000000, -0.000000000000000000 ) ) ;
#191 = FACE_BOUND ( 'NONE', #142, .T. ) ;
#192 = AXIS2_PLACEMENT_3D ( 'NONE', #62, #69, #31 ) ;
#193 = FACE_OUTER_BOUND ( 'NONE', #270, .T. ) ;
#194 = CARTESIAN_POINT ( 'NONE',  ( 1.250000000000000222, 5.000000000000000000, 0.000000000000000000 ) ) ;
#195 = PLANE ( 'NONE',  #155 ) ;
#196 = DIRECTION ( 'NONE',  ( 0.000000000000000000, 0.000000000000000000, 1.000000000000000000 ) ) ;
#197 = AXIS2_PLACEMENT_3D ( 'NONE', #283, #139, #164 ) ;
#198 = DIRECTION ( 'NONE',  ( 1.000000000000000000, 0.000000000000000000, 0.000000000000000000 ) ) ;
#199 = PRODUCT_DEFINITION ( 'UNKNOWN', '', #326, #252 ) ;
#200 = ADVANCED_FACE ( 'NONE', ( #280 ), #324, .F. ) ;
#201 = ADVANCED_FACE ( 'NONE', ( #308 ), #216, .F. ) ;
#202 = ORIENTED_EDGE ( 'NONE', *, *, #57, .F. ) ;
#203 = VECTOR ( 'NONE', #137, 1000.000000000000000 ) ;
#204 = VERTEX_POINT ( 'NONE', #222 ) ;
#205 = EDGE_LOOP ( 'NONE', ( #117, #174 ) ) ;
#206 = CC_DESIGN_DATE_AND_TIME_ASSIGNMENT ( #129, #323, ( #223 ) ) ;
#207 = AXIS2_PLACEMENT_3D ( 'NONE', #127, #54, #180 ) ;
#208 = PERSON_AND_ORGANIZATION ( #296, #327 ) ;
#209 = CARTESIAN_POINT ( 'NONE',  ( -3.000000000000000000, 0.000000000000000000, 5.000000000000000000 ) ) ;
#210 = APPROVAL_ROLE ( '' ) ;
#211 = PERSON_AND_ORGANIZATION_ROLE ( 'creator' ) ;
#212 = CARTESIAN_POINT ( 'NONE',  ( -1.614212418857619014, 0.000000000000000000, 5.000000000000000888 ) ) ;
#213 = CC_DESIGN_PERSON_AND_ORGANIZATION_ASSIGNMENT ( #187, #281, ( #223 ) ) ;
#214 = AXIS2_PLACEMENT_3D ( 'NONE', #4, #89, #267 ) ;
#215 = CARTESIAN_POINT ( 'NONE',  ( -3.000000000000000000, 0.000000000000000000, 0.000000000000000000 ) ) ;
#216 = PLANE ( 'NONE',  #275 ) ;
#217 = CARTESIAN_POINT ( 'NONE',  ( -1.614212418857619014, 0.000000000000000000, 12.69999999999999929 ) ) ;
#218 = DIRECTION ( 'NONE',  ( 0.000000000000000000, 0.000000000000000000, 1.000000000000000000 ) ) ;
#219 = AXIS2_PLACEMENT_3D ( 'NONE', #312, #140, #110 ) ;
#220 = EDGE_CURVE ( 'NONE', #122, #204, #72, .T. ) ;
#221 = CARTESIAN_POINT ( 'NONE',  ( 3.000000000000000000, 0.000000000000000000, 5.000000000000001776 ) ) ;
#222 = CARTESIAN_POINT ( 'NONE',  ( 1.250000000000000444, 0.000000000000000000, 5.000000000000000000 ) ) ;
#223 = SECURITY_CLASSIFICATION ( '', '', #86 ) ;
#224 = ORIENTED_EDGE ( 'NONE', *, *, #55, .T. ) ;
#225 = EDGE_CURVE ( 'NONE', #250, #13, #321, .T. ) ;
#226 = ORIENTED_EDGE ( 'NONE', *, *, #158, .F. ) ;
#227 = ORIENTED_EDGE ( 'NONE', *, *, #48, .T. ) ;
#228 = AXIS2_PLACEMENT_3D ( 'NONE', #88, #198, #2 ) ;
#229 = CC_DESIGN_PERSON_AND_ORGANIZATION_ASSIGNMENT ( #85, #211, ( #326 ) ) ;
#230 = ORIENTED_EDGE ( 'NONE', *, *, #220, .T. ) ;
#231 = ORIENTED_EDGE ( 'NONE', *, *, #73, .T. ) ;
#232 = PERSON_AND_ORGANIZATION ( #296, #327 ) ;
#233 = CARTESIAN_POINT ( 'NONE',  ( 3.000000000000000000, 0.000000000000000000, 0.000000000000000000 ) ) ;
#234 = COORDINATED_UNIVERSAL_TIME_OFFSET ( 8, 0, .AHEAD. ) ;
#235 = DIRECTION ( 'NONE',  ( -1.000000000000000000, -0.000000000000000000, -0.000000000000000000 ) ) ;
#236 = DATE_AND_TIME ( #105, #70 ) ;
#237 = CC_DESIGN_APPROVAL ( #113, ( #326 ) ) ;
#238 = APPLICATION_PROTOCOL_DEFINITION ( 'international standard', 'config_control_design', 1994, #249 ) ;
#239 = DIRECTION ( 'NONE',  ( -1.000000000000000000, -0.000000000000000000, -0.000000000000000000 ) ) ;
#240 = MANIFOLD_SOLID_BREP ( 'Ðý×', #108 ) ;
#241 = CARTESIAN_POINT ( 'NONE',  ( -1.614212418857619014, 0.000000000000000000, 5.000000000000000888 ) ) ;
#242 = DIRECTION ( 'NONE',  ( 0.000000000000000000, 0.000000000000000000, -1.000000000000000000 ) ) ;
#243 = CARTESIAN_POINT ( 'NONE',  ( 1.250000000000000444, 0.000000000000000000, 0.000000000000000000 ) ) ;
#244 = DIRECTION ( 'NONE',  ( 1.000000000000000000, 0.000000000000000000, 0.000000000000000000 ) ) ;
#245 = CARTESIAN_POINT ( 'NONE',  ( -1.614212418857619014, 1.555301434917138433E-15, -12.69999999999999929 ) ) ;
#246 = EDGE_CURVE ( 'NONE', #96, #318, #34, .T. ) ;
#247 = AXIS2_PLACEMENT_3D ( 'NONE', #47, #255, #18 ) ;
#248 = APPROVAL ( #328, 'UNSPECIFIED' ) ;
#249 = APPLICATION_CONTEXT ( 'configuration controlled 3d designs of mechanical parts and assemblies' ) ;
#250 = VERTEX_POINT ( 'NONE', #293 ) ;
#251 = EDGE_LOOP ( 'NONE', ( #40, #119 ) ) ;
#252 = DESIGN_CONTEXT ( 'detailed design', #249, 'design' ) ;
#253 = ORIENTED_EDGE ( 'NONE', *, *, #59, .F. ) ;
#254 = PERSON_AND_ORGANIZATION ( #296, #327 ) ;
#255 = DIRECTION ( 'NONE',  ( -1.000000000000000000, -0.000000000000000000, -0.000000000000000000 ) ) ;
#256 = DIRECTION ( 'NONE',  ( 1.000000000000000000, 0.000000000000000000, 0.000000000000000000 ) ) ;
#257 = CYLINDRICAL_SURFACE ( 'NONE', #24, 5.000000000000000888 ) ;
#258 = COORDINATED_UNIVERSAL_TIME_OFFSET ( 8, 0, .AHEAD. ) ;
#259 = CARTESIAN_POINT ( 'NONE',  ( -1.614212418857619014, 0.000000000000000000, 0.000000000000000000 ) ) ;
#260 = PERSON_AND_ORGANIZATION ( #296, #327 ) ;
#261 = CIRCLE ( 'NONE', #149, 12.69999999999999929 ) ;
#262 = CARTESIAN_POINT ( 'NONE',  ( -1.250000000000000222, 0.000000000000000000, 5.000000000000000888 ) ) ;
#263 = DIRECTION ( 'NONE',  ( -1.000000000000000000, -0.000000000000000000, -0.000000000000000000 ) ) ;
#264 = DIRECTION ( 'NONE',  ( 0.000000000000000000, 0.000000000000000000, 1.000000000000000000 ) ) ;
#265 = CARTESIAN_POINT ( 'NONE',  ( -1.250000000000000222, 0.000000000000000000, 0.000000000000000000 ) ) ;
#266 = ADVANCED_FACE ( 'NONE', ( #64 ), #170, .F. ) ;
#267 = DIRECTION ( 'NONE',  ( 0.000000000000000000, 0.000000000000000000, 1.000000000000000000 ) ) ;
#268 = VECTOR ( 'NONE', #288, 1000.000000000000000 ) ;
#269 = ORIENTED_EDGE ( 'NONE', *, *, #320, .T. ) ;
#270 = EDGE_LOOP ( 'NONE', ( #121, #226, #150, #269 ) ) ;
#271 = EDGE_LOOP ( 'NONE', ( #315, #224, #75, #227 ) ) ;
#272 = PRODUCT_RELATED_PRODUCT_CATEGORY ( 'detail', '', ( #128 ) ) ;
#273 = APPROVAL_PERSON_ORGANIZATION ( #232, #146, #210 ) ;
#274 = ORIENTED_EDGE ( 'NONE', *, *, #225, .F. ) ;
#275 = AXIS2_PLACEMENT_3D ( 'NONE', #194, #190, #26 ) ;
#276 = APPROVAL_DATE_TIME ( #51, #113 ) ;
#277 = PERSON_AND_ORGANIZATION ( #296, #327 ) ;
#278 = DIRECTION ( 'NONE',  ( -1.000000000000000000, -0.000000000000000000, -0.000000000000000000 ) ) ;
#279 = DATE_AND_TIME ( #185, #292 ) ;
#280 = FACE_OUTER_BOUND ( 'NONE', #82, .T. ) ;
#281 = PERSON_AND_ORGANIZATION_ROLE ( 'classification_officer' ) ;
#282 = DIRECTION ( 'NONE',  ( -1.000000000000000000, -0.000000000000000000, -0.000000000000000000 ) ) ;
#283 = CARTESIAN_POINT ( 'NONE',  ( -1.250000000000000222, 0.000000000000000000, 0.000000000000000000 ) ) ;
#284 = CARTESIAN_POINT ( 'NONE',  ( 3.000000000000000000, 0.000000000000000000, 0.000000000000000000 ) ) ;
#285 = AXIS2_PLACEMENT_3D ( 'NONE', #233, #278, #52 ) ;
#286 = FACE_OUTER_BOUND ( 'NONE', #251, .T. ) ;
#287 = AXIS2_PLACEMENT_3D ( 'NONE', #259, #263, #196 ) ;
#288 = DIRECTION ( 'NONE',  ( -1.000000000000000000, -0.000000000000000000, -0.000000000000000000 ) ) ;
#289 = CARTESIAN_POINT ( 'NONE',  ( 3.000000000000000000, 1.555301434917138433E-15, -12.69999999999999929 ) ) ;
#290 = VERTEX_POINT ( 'NONE', #332 ) ;
#291 = DIRECTION ( 'NONE',  ( -1.000000000000000000, -0.000000000000000000, -0.000000000000000000 ) ) ;
#292 = LOCAL_TIME ( 9, 48, 14.00000000000000000, #258 ) ;
#293 = CARTESIAN_POINT ( 'NONE',  ( 3.000000000000000000, 6.123233995736768255E-16, -5.000000000000001776 ) ) ;
#294 = ADVANCED_FACE ( 'NONE', ( #167 ), #165, .T. ) ;
#295 = CIRCLE ( 'NONE', #14, 5.000000000000000000 ) ;
#296 = PERSON ( 'UNSPECIFIED', 'UNSPECIFIED', 'UNSPECIFIED', ('UNSPECIFIED'), ('UNSPECIFIED'), ('UNSPECIFIED') ) ;
#297 = VERTEX_POINT ( 'NONE', #36 ) ;
#298 = AXIS2_PLACEMENT_3D ( 'NONE', #335, #135, #218 ) ;
#299 = ORIENTED_EDGE ( 'NONE', *, *, #246, .F. ) ;
#300 = ORIENTED_EDGE ( 'NONE', *, *, #143, .F. ) ;
#301 = ORIENTED_EDGE ( 'NONE', *, *, #246, .T. ) ;
#302 = CARTESIAN_POINT ( 'NONE',  ( 1.250000000000000444, 6.123233995736766282E-16, -5.000000000000000000 ) ) ;
#303 = APPROVAL_ROLE ( '' ) ;
#304 = COORDINATED_UNIVERSAL_TIME_OFFSET ( 8, 0, .AHEAD. ) ;
#305 = PERSON_AND_ORGANIZATION ( #296, #327 ) ;
#306 = APPLICATION_CONTEXT ( 'configuration controlled 3d designs of mechanical parts and assemblies' ) ;
#307 = CARTESIAN_POINT ( 'NONE',  ( -1.614212418857619014, 6.123233995736767268E-16, -5.000000000000000888 ) ) ;
#308 = FACE_OUTER_BOUND ( 'NONE', #38, .T. ) ;
#309 = PRODUCT_DEFINITION_SHAPE ( 'NONE', 'NONE',  #199 ) ;
#310 = AXIS2_PLACEMENT_3D ( 'NONE', #243, #116, #94 ) ;
#311 = ORIENTED_EDGE ( 'NONE', *, *, #79, .T. ) ;
#312 = CARTESIAN_POINT ( 'NONE',  ( -1.614212418857619014, 0.000000000000000000, 0.000000000000000000 ) ) ;
#313 =( NAMED_UNIT ( * ) PLANE_ANGLE_UNIT ( ) SI_UNIT ( $, .RADIAN. ) );
#314 = LOCAL_TIME ( 9, 48, 14.00000000000000000, #304 ) ;
#315 = ORIENTED_EDGE ( 'NONE', *, *, #73, .F. ) ;
#316 = CIRCLE ( 'NONE', #133, 5.000000000000000000 ) ;
#317 = VERTEX_POINT ( 'NONE', #163 ) ;
#318 = VERTEX_POINT ( 'NONE', #289 ) ;
#319 = ORIENTED_EDGE ( 'NONE', *, *, #33, .F. ) ;
#320 = EDGE_CURVE ( 'NONE', #204, #122, #178, .T. ) ;
#321 = CIRCLE ( 'NONE', #19, 5.000000000000001776 ) ;
#322 = APPROVAL_STATUS ( 'not_yet_approved' ) ;
#323 = DATE_TIME_ROLE ( 'classification_date' ) ;
#324 = CYLINDRICAL_SURFACE ( 'NONE', #287, 5.000000000000000888 ) ;
#325 = CARTESIAN_POINT ( 'NONE',  ( 0.000000000000000000, 0.000000000000000000, 0.000000000000000000 ) ) ;
#326 = PRODUCT_DEFINITION_FORMATION_WITH_SPECIFIED_SOURCE ( 'ANY', '', #128, .NOT_KNOWN. ) ;
#327 = ORGANIZATION ( 'UNSPECIFIED', 'UNSPECIFIED', '' ) ;
#328 = APPROVAL_STATUS ( 'not_yet_approved' ) ;
#329 = LINE ( 'NONE', #212, #176 ) ;
#330 = EDGE_CURVE ( 'NONE', #41, #172, #66, .T. ) ;
#331 = FACE_BOUND ( 'NONE', #205, .T. ) ;
#332 = CARTESIAN_POINT ( 'NONE',  ( -3.000000000000000000, 6.123233995736766282E-16, -5.000000000000000000 ) ) ;
#333 = CC_DESIGN_DATE_AND_TIME_ASSIGNMENT ( #236, #22, ( #199 ) ) ;
#334 = LINE ( 'NONE', #245, #159 ) ;
#335 = CARTESIAN_POINT ( 'NONE',  ( 1.250000000000000444, 0.000000000000000000, 0.000000000000000000 ) ) ;
ENDSEC;
END-ISO-10303-21;
